Sie sind vermutlich noch nicht im Forum angemeldet - Klicken Sie hier um sich kostenlos anzumelden  
Willkommen auf forum.metallicafan.de – die deutsche METALLICA-Community!
Das Forum war Teil der Community von METALLICAfan.de, Deutschlands meistbesuchtester METALLICA-Fansite.
METALLICAfan.de hat nach über 11 Jahren Ende 2010 die Seiten geschlossen. Dieses Forum bleibt weiterhin erhalten. Wir freuen uns auf viele spannende Diskussionen rund um METALLICA, Metal, u.v.m.!
Sie können sich hier anmelden
Dieses Thema hat 23 Antworten
und wurde 640 mal aufgerufen
 Community
Seiten 1 | 2
mig Offline

Veritas † Aequitas


Beiträge: 6.208

11.06.2003 18:44
#16 RE:Re: TABs antworten

Willst du generell wissen, wie man Tabs spielt oder wie man die spielt, die da oben gepostet wurden?

TheUnforgiven II Offline

Overkill Member


Beiträge: 606

11.06.2003 18:57
#17 RE:Re: TABs antworten

Also ich meine Welche Zahl welche ist weil ich kenne nur die Buchstaben g d am und so


Metallica is the Law


"I need my anger to be me, I need to set my anger free"

mig Offline

Veritas † Aequitas


Beiträge: 6.208

11.06.2003 20:10
#18 RE:Re: TABs antworten

Die Zahlen stehen jeweils für den Bund der Gitarre, also ganz einfach. 1 ist der Bund der am weitesten vom Korpus entfernt ist. Wenn eine 0 da steht, schlägst du die Saite an, aber eben kein Finger drauf. Die unterste Linie der Tabulatur stellt die E-Saite da. Also die dickste Saite und die oberste Linie ist e, also die dünnste Saite der Gitarre. Jo und dann gibt es halt noch diese ganzen Symbole, die man in die Tabs reinhauen kann wie Hammer ons , oder Slide up / down, vibrato, usw.

TheUnforgiven II Offline

Overkill Member


Beiträge: 606

11.06.2003 20:26
#19 RE:Re: TABs antworten

Wenn man das hier z.b. nimmt.
In der 2. Reie sind so Buchstaben wie h und s was heißen die?
Metallica - Nothing Else


Intro:
(Clean guitar)

e|----------0-------|----------0-------|----------0-------|----------0-----7-|
B|-------0-----0----|-------0-----0----|-------0-----0----|-------0-----0----|
G|----0-----------0-|----0-----------0-|----0-----------0-|----0-------------|
D|------------------|------------------|------------------|------------------|
A|------------------|------------------|------------------|------------------|
E|-0----------------|-0----------------|-0----------------|-0----------------|


e|-7--------7p0-------|-0-----7--8--7h8s5-|-7--5p3s2----|----------2p0-------|----------0--0--0-|
B|----0-----0----0----|-------0--0--------|-0---------5-|-5-----5-------5----|-------5-----5--5-|
G|-------0----------0-|----0--------------|-------------|----5-------------5-|----5--------5--5-|
D|--------------------|-------------------|-------------|--------------------|------------------|
A|--------------------|-------------------|-------------|-0------------------|-0-----------0--2-|
E|-0------------------|-0-----------------|-------------|--------------------|------------------|

("()" means - extended note) Harm.------|
e|-0---------3p0-----0-|-0----------(0)h5p0---------|-------------12-------|----------0-------|
B|-5------5------5---5-|-7------7-----------7p0-0h5-|----12---12------0----|-------0-----0----|
G|-5----5---5------5-5-|-7----7---7-----------------|----12--------------0-|----0-----------0-|
D|---------------------|----------------------------|----------------------|------------------|
A|-3--3--------------3-|-5--5-----------------------|----------------------|------------------|
E|---------------------|----------------------------|-0--------------------|-0----------------|

(let ring)
e|----------0-------|-----------7------|------------------|-----------7------|------------------|
B|-------0-----0----|-----------8------|-------7--------5-|-----------8------|-------7--------5-|
G|----0-----------0-|---------9--------|-------7--------5-|---------9--------|-------7--------5-|
D|------------------|-------9----------|----7--------5----|-------9----------|----7--------5----|
A|------------------|-----7------------|-5--------3-------|-----7------------|-5--------3-------|
E|-0----------------|-0----------------|------------------|-0----------------|------------------|

(let ring)
e|-----------7------|-------------------|--------------------|----------0-------|----------0-------|
B|-----------8------|--------7--------5-|--------3---------4-|-------0-----0----|-------0-----0----|
G|---------9--------|--------7--------5-|--------4---------2-|----0-----------0-|----0-----------0-|Gtr. I
D|-------9----------|----7--------5-----|--------------4-----|------------------|------------------|
A|-----7------------|-5--------3--------|----5------2--------|------------------|------------------|
E|-0----------------|-------------------|-3------------------|-0----------------|-0----------------|
| | | | | Harm. |
e|------------7-----|----5--------3-----|----3---------2-----|------------------|-12---------------|
B|----------8-------|------7--------5---|------3---------4---|------------------|-12---------------|
G|--------9---------|--------7--------5-|--------4---------2-|-2p0-0------------|-12---------------|Gtr. II
D|------------------|-------------------|--------------------|----4-------------|------------------|
A|------------------|-------------------|--------------------|------------------|------------------|
E|------------------|-------------------|--------------------|------------------|------------------|
End intro.


1st. verse+
So close, no matter how far Couldn't be much more from the heart
Em D Cadd2 Em D Cadd2
e|----------3-----0-------|--2-----3--------0------------|----------3-----0-------|-2--------------------------|
B|-------0-----------0----|-----------3--------3---------|-------0-----------0----|-------3-------3-----3------|
G|----0--------0--------0-|--------------0--------0------|----0--------0--------0-|----------2p0-----0---------| <----------|
D|------------------------|--0--0------------------------|------------------------|-0--0-----------------------| |
A|------------------------|-----------------3------------|------------------------|---------------3------------| |
E|-0----------------------|--------------------------3-2-|-0----------------------|------------------------3-2-| |
(Fig. 1) |
Forever trusting who we are And nothing else matters |
Em D Cadd2 G B7 Em Em |
e|----------3-----0-------|-2-----3--------3-------|-------3---2------2----|-0--------0-------|----------0---------| |
B|-------0-----0-----0----|----------3--------3----|-------3---0---------0-|-------0-----0----|-------0-----0------| |
G|----0-----------------0-|-------------0--------0-|----0------2-----------|----0-----------0-|----0---------------| <------|
D|------------------------|-0--0-------------------|-----------------------|------------------|--------------------|
A|------------------------|----------------3-------|-----------2---2-------|------------------|--------------------|
E|-0----------------------|------------------------|-3---------------------|-0----------------|-0--------------3-2-|
End 1st. verse

2nd. verse

(Fig. 1)
Never opened my self this way Life is ours we live it our way
Em D Cadd2 Em D Cadd2 Gtr. 1 (fig. 1)
e|-----------------------|-----------------------|-----------------------------|------------------|
B|-8---------------------|-10---12------8--------|-(8)-------------------------|-10------12----13-|
G|-9---------------------|-11---12------9--------|-(9)-------------------------|-11------12----12-| Gtr. II
D|-----------------------|-----------------------|-----------------------------|------------------|
A|-----------------------|-----------------------|-----------------------------|------------------|
E|-----------------------|-----------------------|-----------------------------|------------------|

All these words I don't just say And nothing else matters
Em D Cadd2 G B7 Em Em
e|-----------------------------|-----------------|--------------------|----------------|-------------|
B|-12--------------------------|-10--12----8-----|-8------7-----------|----------------|-------------|
G|-12--------------------------|-11--12----9-----|--------------------|-9--------------|-(9)---------|
D|-----------------------------|-----------------|-9------------------|(9)-------------|-(9)---------|
A|-----------------------------|-----------------|--------------------|----------------|-------------|
E|-----------------------------|-----------------|--------------------|----------------|-------------|
End 2nd. verse

3rd. verse

(Fig. 1)

Trust I seek and I find in you Every day for us something new
Em D Cadd2 Em D Cadd2 Gtr. I (fig. 1)
e|----------------------|----------------|------------------------|---------------------|
B|----------------------|----------------|------------------------|---------------------|
G|----------------------|----------------|------------------------|---------------------| Gtr. II
D|----------5--5s7--7s5-|-4--------------|------5-----5s7-----7s5-|-4------0--------0---|
A|----------7--7s9--9s7-|-5----7------7--|------7-----7s9-----9s9-|-5-------------------|
E|----------------------|----------------|------------------------|---------------------|

Open mind for a diferent view And nothing else matters
Em D Cadd2 G B7 Em C A D
e|------------------|------------------|-----------------------||----------------|----------5--||
B|------------------|------------------|-----------------------||------5-7-8-7-5-|-8--7--5-----||(arr. for guitar)
G|------------------|-------0----------|-----------------------||----------------|-------------||
D|----5----5s7--7s5-|-4-------------2--|-0---------------------||----------------|-------------||
A|----7----7s9--9s7-|-5-------------3--|-2--2-3-2----2---3---2-||----------------|-------------||
E|------------------|------------------|-----------------------||----------------|-------------||
(riff played by orchestra)
End 3rd. verse

Chorus:

Never cared for what they do Never cared for what they know But I know
D Dsus4 D Dadd2 D C A D Dsus4 D Dadd2 D C A D Em
e|2--------3-----2-----0------2-|-0-----------0-----|-2----------3-----3-----0------3-|-0------------------------------|
B|3--------3-----3-----3------3-|-1-----------2-----|-3----------3-----2-----3------2-|-1------------------------------|
G|2--------2-----2-----2------2-|-0-----------2-----|-2----------2-----3-----2------3-|-0--------0---------------7---9-|
D|0--------0-----0-----0------0-|-2-----------2-----|-0----------0-----0-----0------0-|-2------2---------7-----7-------|
A|x--------x-----x-----x------x-|-3-----------0-----|-x----------x-----x-----x------x-|-3----3---------7-----5---------|
E|x--------x-----x-----x------x-|-x-----------x-----|-x----------x-----x-----x------x-|-x------------5-----------------|
End Chorus

Passage:

e|----------0-------|----------0---------|
B|-------0-----0----|-------0-----0------|
G|----0-----------0-|----0---------------|Gtr. 1
D|------------------|--------------------|
A|------------------|--------------------|
E|-0----------------|-0--------------3-2-|
| | |
e|------------------|----5----------5----|
B|------------------|------8--7--8-----5-|(arr. for guitar)
G|------------------|--------------------|
D|------------------|--------------------|
A|------------------|--------------------|
E|------------------|--------------------|
(riff played by orchestra)


Back to 1st. verse then Chorus

1st. verse
Chorus

Prelude:

Riff played by orchestra:(arr. for guitar)
e|------------------------------|-------------------||
B|------------------------------|--------12------15-||
G|-----------------------12-----|--14---------------||
D|-14---------------------------|-------------------||
A|------------------------------|-------------------||
E|------------------------------|-------------------||


e|-12---------14-----|--15--------17-----||
B|-------------------|-------------------||
G|-------------------|-------------------||Orchestra
D|-------------------|-------------------||
A|-------------------|-------------------||
E|-------------------|-------------------||
| | |
e|-12---------14-----|--15--------17-----|-8--------8-------|--------8-------|-0----------0----|
B|------12--------12-|-------12-------12-|----5--------5----|-----5-----5----|----1----------1-|
G|*------------------|-------------------|-------5--------5-|--5-----------5-|-------0---------|Gtr. 1
D|*------------------|-------------------|------------------|----------------|-----------------|
A|-------------------|-------------------|------------------|----------------|-----------------|
E|-------------------|-------------------|------------------|----------------|-----------------|
| | | | |
e|-15---------17-----|--19--------20-----|-12---------------|----------------|s12--------------|
B|------17--------17-|-------17-------17-|-----13-----------|----------------|----13-----------|
G|-------------------|-------------------|------------------|----------------|-------12--------|Gtr. 2
D|-------------------|-------------------|------------------|----------------|-----------------|
A|-------------------|-------------------|------------------|----------------|-----------------|
E|-------------------|-------------------|------------------|----------------|-----------------|


e|---0----------0----|-7--7--------7--7-------|----------0-------|
B|------3----------3-|-5-----0--------5--0----|-------0-----0----|
G|---------2---------|----------0-----------0-|----0-----------0*|
D|-------------------|------------------------|-----------------*|
A|-------------------|------------------------|------------------|
E|-------------------|------------------------|-0----------------|
| | | |
e|12s14--------------|-12----------12---------|------------------|
B|------15-----------|------------------------|------------------|
G|---------14--------|------------------------|------------------|
D|-------------------|------------------------|------------------|
A|-------------------|------------------------|------------------|
E|-------------------|------------------------|------------------| |
|------------------------------1a. vez-----------------------------|


e|-------------------------|----------------------|----------------------------------||------------|
B|-------------------------|---12--------12-------|-15-15^--15^----------------------||------------|
G|------12-12h14-12h14 14^-|-12-------------------|-14-14^--14^-(14)p12-----------12-||------------| Gtr. II
D|-------------------------|-----------------14---|---------------------14--12h14----||-14---------|
A|-------------------------|----------------------|----------------------------------||------------|
E|-------------------------|----------------------|----------------------------------||------------| |
|-----------------------------------------2nd. time----------------------------------------------------|
End prelude

Back to 2nd. verse then 3rd. verse

2nd. verse
3rd. verse

Chorus II:

Never cared for what they say Never cared for games they play
D Dsus4 D Dadd2 D C A D Dsus4 D Dadd2 D C A
e|2--------3-----2-----0------2-|-0-----------0-----|-2----------3-----3-----0------3-|-0----------0-|
B|3--------3-----3-----3------3-|-1-----------2-----|-3----------3-----2-----3------2-|-1----------2-|
G|2--------2-----2-----2------2-|-0-----------2-----|-2----------2-----3-----2------3-|-0----------2-|
D|0--------0-----0-----0------0-|-2-----------2-----|-0----------0-----0-----0------0-|-2----------2-|
A|x--------x-----x-----x------x-|-3-----------0-----|-x----------x-----x-----x------x-|-3----------0-|
E|x--------x-----x-----x------x-|-x-----------x-----|-x----------x-----x-----x------x-|-x----------x-|


Never cared for what they do Never cared for what they know And I know
D Dsus4 D Dadd2 D C A D Dsus4 D Dadd2 D C A D Em
e|2--------3-----2-----0------2-|-0-----------0-----|-2----------3-----3-----0------3-|-0------------------------------|
B|3--------3-----3-----3------3-|-1-----------2-----|-3----------3-----2-----3------2-|-1------------------------------|
G|2--------2-----2-----2------2-|-0-----------2-----|-2----------2-----3-----2------3-|-0--------0---------------7---9-|
D|0--------0-----0-----0------0-|-2-----------2-----|-0----------0-----0-----0------0-|-2------2---------7-----7-------|
A|x--------x-----x-----x------x-|-3-----------0-----|-x----------x-----x-----x------x-|-3----3---------7-----5---------|
E|x--------x-----x-----x------x-|-x-----------x-----|-x----------x-----x-----x------x-|-x------------5-----------------|
End Chorus II

e|------------------|----------5-------||
B|-5--------7-------|-8----------------||
G|------------------|------------------||Orchestra
D|------------------|------------------||
A|------------------|------------------||
E|------------------|------------------||
| | |
e|----------0-------|----------0-------|
B|-------0-----0----|-------0-----0----|
G|----0-----------0-|----0-----------0-|Gtr. 1
D|------------------|------------------|
A|------------------|------------------|
E|-0----------------|-0----------------|
Yeah, Yeah

Solo:
E5 B sl.E E5(2) D5 C5 G F# E5 B sl.E E5(2)
e|--------------------------------|--------------------------------------|-------12-------12---------------------|
B|-15^----------------------------|--------------------------------------|----12-------12----15p12----12---------|
G|-14^-------14^-----12----14--12-|-11h12p11-----11-----------12--14--12-|-14^------14^------------15-----15--14-|
D|--------------------------------|----------14------12--14--------------|---------------------------------------|
A|--------------------------------|--------------------------------------|---------------------------------------|
E|--------------------------------|--------------------------------------|---------------------------------------|

D5 C5 G F# E5 B sl.E E5(2) D5 C5
e|--------------------------------|-s15--14-------15--14--15--16s17---17-|-15-14h15p14s12----15-14------------------|
B|----------14-14-13--------------|----------12--------------------------|----------------12-------12---------------|
G|-12^------14-14-13--12-----(12)-|--------------------------------------|--------------------------------12-14-12--|
D|------14------------------------|--------------------------------------|------------------------------------------|
A|--------------------------------|--------------------------------------|------------------------------------------|
E|--------------------------------|--------------------------------------|------------------------------------------|

G5 B5 E5
e|-----------------------------12-------------------|------------------|------------------|------------------|------------------|
B|-15^----------------------12------15-15^--(15)p12-|-15^--------------|-(15)--------(15)p|12h15p12---(12)s7s|5h7p5-------------|
G|-14^--(14)p12------12--14^------------------------|------------------|------------------|------------------|------------------|
D|---------------14---------------------------------|------------------|------------------|------------------|------------------|
A|--------------------------------------------------|------------------|------------------|------------------|------------------|
E|--------------------------------------------------|------------------|------------------|------------------|------------------|
| | | | |
e|----------0-------|----------0-------|----------0-------|----------0-------|
B|-------0-----0----|-------0-----0----|-------0-----0----|-------0-----0----|
G|----0-----------0-|----0-----------0-|----0-----------0-|----0-----------0-|
D|------------------|------------------|------------------|------------------|
A|------------------|------------------|------------------|------------------|
E|-0----------------|-0----------------|-0----------------|-0----------------|

Very End:

So close, no matter how far Couldn't be much more from the heart
Em D Cadd2 Em D Cadd2
e|----------3-----0-------|--2-----3--------0------------|----------3-----0-------|-2--------------------------|
B|-------0-----------0----|-----------3--------3---------|-------0-----------0----|-------3-------3-----3------|
G|----0--------0--------0-|--------------0--------0------|----0--------0--------0-|----------2p0-----0---------|Gtr. I
D|------------------------|--0--0------------------------|------------------------|-0--0-----------------------|
A|------------------------|-----------------3------------|------------------------|---------------3------------|
E|-0----------------------|--------------------------3-2-|-0----------------------|------------------------3-2-|
| | | | |
e|------------------------|------------------------------|------------------------|----------------------------|
B|-(5)--------------------|-7------8--------5------------|-(5)--------------------|-7-----8--------------------|Gtr. II
G|------------------------|------------------------------|------------------------|---------------7------------|
D|------------------------|------------------------------|------------------------|----------------------------|
A|------------------------|------------------------------|------------------------|----------------------------|
E|------------------------|------------------------------|------------------------|----------------------------|

Forever trusting who we are No nothing else matters
Em D Cadd2 G B7 Em Em
e|----------3-----0-------|-2-----3--------3-------|-------3---2------2----|-0--------0-------|----------0-----7---|
B|-------0-----0-----0----|----------3--------3----|-------3---0---------0-|-------0-----0----|-------0-----0------|
G|----0-----------------0-|-------------0--------0-|----0------2-----------|----0-----------0-|----0---------------|
D|------------------------|-0--0-------------------|-----------------------|------------------|--------------------|
A|------------------------|----------------3-------|-----------2---2-------|------------------|--------------------|
E|-0----------------------|------------------------|-3---------------------|-0----------------|-0------------------|
| | | | | |
e|------------------------|------------------------|-----------------------|------------------|--------------------|
B|-(7)--------------------|-7-----8s-------12------|-(12)------------------|-(12)-------------|-(12)---------------|
G|------------------------|------------------------|-----------------------|------------------|--------------------|
D|------------------------|------------------------|-----------------------|------------------|--------------------|
A|------------------------|------------------------|-----------------------|------------------|--------------------|
E|------------------------|------------------------|-----------------------|------------------|--------------------|
Let ring until end

e|--7--------7p0-------|-------7--8--7h8p7s5-|-7-----5s3-----0-|-0--------0-------|----------0-----7-----|
B|-----0----------0----|-------0--0----------|-0---------------|-------0-----0----|-------0-----0--------|
G|*-------0----------0-|----0----------------|-----------------|----0-----------0-|----0----------------*|Gtr. I
D|*--------------------|---------------------|-----------------|------------------|---------------------*|
A|---------------------|---------------------|-----------------|------------------|----------------------|
E|--0------------------|-0-------------------|-----------------|-0----------------|-0--------------------|
Repeat and fade
Chords:

E5 E5(2) D5 D5
e-|x|------|x|---------|x|-----|x|
B-|x|------|x|---------|x|-----|x|
G-|x|------|x|---------|x|-----|x|
D-|x|------|9|---------|7|-----|5|
A-|2|------|7|---------|5|-----|3|
E-|0|------|x|---------|x|-----|x|


Metallica is the Law


"I need my anger to be me, I need to set my anger free"

mig Offline

Veritas † Aequitas


Beiträge: 6.208

12.06.2003 16:25
#20 RE:Re: TABs antworten

s müsste für Slide stehen, dass du also z.B. vom 5 in den 3 Bund slidest.
h müsste hammer on sein, aber wie man das macht, hab ich bis heute nicht verstanden.

Vielleicht hilft dir folgende Seite bei weiteren Fragen:
http://www.gitarrenlinks.de/techniken.htm

P.S. Ich glaub wenn du nur die zweite Reihe der Tabs gepostet hättest, hätte es auch gelangt

mig Offline

Veritas † Aequitas


Beiträge: 6.208

13.06.2003 17:19
#21 RE:Re: TABs antworten

So, jetzt hätte ich aber auch mal ne Frage. Hab mir die Tabs von MoP runtergeladen und da steht |PM| dabei. Jetzt würde ich gerne mal wissen, was das ist und wie man das spielt, da es an einigen Stellen im Lied vorkommt.
Bsp:
...
A|------7-----6----------.....
E|--0-0---0-0---0-0----.....-0-0-7-0-0-6-0-0-5-0-0-4-0-3-0-2-0

   |-| |-| |-|     |---------------------------|

HeTill Offline

Admin, Inc.

Beiträge: 7.698

13.06.2003 17:21
#22 RE:Re: TABs antworten

Palm Mute, einfach die rechte Handfläche auf die Saiten legen. Der Sound hört sich dann dumpfer an und klingt nicht so lange.

---
If I could have my wasted days back / I'd use them to get back on track / Try to warn karmas burning,
Moved ahead but keep on turning / Do I have the strength / Or do I let go / Can't fight it inside / Do what I should have known / Can I have my wasted days back / I'll use them to get back on track / You live it, you lie it / You live it, or die it / My lifestyle determines my deathstyle, / My lifestyle determines my deathstyle / Keep searching, / Keep on searching / ....the search goes on / ....the search goes on / Keep searching / Keep on searching

mig Offline

Veritas † Aequitas


Beiträge: 6.208

13.06.2003 17:23
#23 RE:Re: TABs antworten

Aha, danke für die schnelle Hilfe, werd ich mal ausprobieren.

P.S. warum blickt das Forum eigentlich ned mehr als 1 Leerstelle? Das |---| soll eigentlich weiter rechts stehen, naja...


edit: Merci, nach ca. 10 Minuten hin und herprobieren hab ich's jetzt endlich, aber die Ideallösung scheinen die <pre> Tags auch ned zu sein... naja, besser als nix.

Hetfieldfan Offline

Hedniskhjärtad

Beiträge: 3.875

13.06.2003 17:25
#24 RE:Re: TABs antworten

Bei sowas notfalls einfach den Text in pre-Codes setzen (siehe FAQ). Dann wird alles richtig dargestellt.


There's a shadow just behind me, shrouding every breath I take,
Making every promise empty, pointing every finger at me.
Waiting like a stalking butler who upon the finger rests.
Murder now the path called "must we" just before the son has come.

I am just a worthless liar. I am just an imbecile.
I will only complicate you. Trust in me and fall as well.
I will find a center in you. I will chew it up and leave,
I will work to elevate you just enough to bring you down.

CU and may the metal be with you! ©+® by Hetfieldfan
The incredible Hetfieldfan

Moderator der Foren "Personen", "Internes", "Bugs und Vorschläge", "Musiker", "PC/Mac Allgemein" und "Andere Bands/Musiker"

Seiten 1 | 2
 Sprung  
Xobor Ein Kostenloses Forum von Xobor.de
Einfach ein Forum erstellen