Sie sind vermutlich noch nicht im Forum angemeldet - Klicken Sie hier um sich kostenlos anzumelden  
Willkommen auf forum.metallicafan.de – die deutsche METALLICA-Community!
Das Forum war Teil der Community von METALLICAfan.de, Deutschlands meistbesuchtester METALLICA-Fansite.
METALLICAfan.de hat nach über 11 Jahren Ende 2010 die Seiten geschlossen. Dieses Forum bleibt weiterhin erhalten. Wir freuen uns auf viele spannende Diskussionen rund um METALLICA, Metal, u.v.m.!
Sie können sich hier anmelden
Dieses Thema hat 23 Antworten
und wurde 640 mal aufgerufen
 Community
Seiten 1 | 2
Phantom Lord ( Gast )
Beiträge:

01.03.2001 21:35
TABs antworten
Wie ich mitlerweile gemerkt habe gibt es hier doch einige Leute,die sich für Musik machen interessieren.Deswegen dachte ich mir können genau diese Ihr wissen in Form von TABs hier niederschreiben.Egal ob Gitarre,Bass oder Drums.

JoKurt ( Gast )
Beiträge:

02.03.2001 07:52
Re: TABs antworten
Ähhmm...
was sollen wir denn aufschreiben ?
Metallica Songs?! Unseren eigenen Stuff?! Sachen von anderen Bands ?!



------

I'm the one for whom the bell tolls

JoKurt

What does it mean to you?
For me, it's somthing I just do
I want something
I need to feel the sickness in you


"Ehj man, bist du *rschratte oda was?!" - "Nö, aber schau mal in das Teil names Spiegel, hängt meistens im Bad..."

Moderator der Foren "Lob & Tadel" sowie "Sites im Web"

Phantom Lord ( Gast )
Beiträge:

02.03.2001 13:06
#3 Re: TABs antworten
Leute was ich meine sind halt Töne oder Griffe für irgend einen Song,egal ob Metallica,Maiden oder eine andere Band.
Hier ein Beispiel:Until it sleeps
(für einen Viersaiten Bass umgeschrieben!!!)
Normalerweise wird der Song auf einem Fünfsaiten Fretless Bass gespielt.

A7 Intro
D7

D10 Where do I take...
D9
D7

D10 I run but it ...
A7
E5

E4 So tear me open...
E2
E0

E4
E0
E2

E7 It grips you so hold me...
D9
D7
E7
E8
E9

JoKurt ( Gast )
Beiträge:

03.03.2001 10:17
#4 Re: TABs antworten
*tadaaa* Eineige Drumtabs für Until it sleeps...

1 + 2 + 3 + 4 +
r---r----r----r-
----s---------s-
b-b------b-b----


1 + 2 + 3 + 4 +
r---r---r-------
----s-------ssss
b-b-----b-b-----

so, das ganze bitte 4 mal, zweimal intro, zweimal Strophe, aber beim letzten (5.) mal Strophe dann:


1 + 2 + 3 + 4 +
r---r---r-------
----s-----s-s-s-
b-b-----b-l-l-l-

Kommen wir zum Refrain


1 + 2 + 3 + 4 +
C---*---*---*---
----s-------s---
b-b-----b-b-----


1 + 2 + 3 + 4 +
*---*---*----*--
----s--------s--
b-b-----b-b---b-

Tja, und so weiter usw usw usw...


------

I'm the one for whom the bell tolls

JoKurt

What does it mean to you?
For me, it's somthing I just do
I want something
I need to feel the sickness in you

Moderator der Foren "Lob & Tadel" sowie "Sites im Web"

JoKurt ( Gast )
Beiträge:

03.03.2001 10:18
#5 Re: TABs antworten
Hm, irgendwie kapiert der das mit den Leerzeichen nicht so ganz, im "Quelltext", also so wie ichs geschrieben habe, stimmts...*grr*

------

Ich habs jetzt nochmals umgeändert, nun kann man's lesen!

------

I'm the one for whom the bell tolls

Jo"Mist!"Kurt

What does it mean to you?
For me, it's somthing I just do
I want something
I need to feel the sickness in you

Moderator der Foren "Lob & Tadel" sowie "Sites im Web"

Maxxro ( Gast )
Beiträge:

13.03.2001 04:58
#6 Re: TABs antworten

-------------------|------------------|------------------|------------------|-------------------|------------------
-------------------|------------------|------------------|------------------|-------------------|------------------
-----------3-------|----------3-------|----------5-------|----------5-------|----------7--------|----------7-------
--5-5-5-5-----5--3-|--5-5-5-5----5--7-|--7-7-7-7----7--5-|--7-7-7-7---7--9--|--9-9-9-9----9--7--|--9-9-9-9---9-11--
-------------------|------------------|------------------|------------------|-------------------|------------------

------------------|------------------|------------------|
------------------|------------------|------------------|
------------------|------------------|------------------| 2x
--5----5-5---5-5-5|--7----7-7---7-7-7|--9----9-9---9-9-9|
--5----5-5---5-5-5|--7----7-7---7-7-7|--9----9-9---9-9-9|
--3----3-3---3-3-3|--5----5-5---5-5-5|--7----7-7---7-7-7|

------------------|------------------|------------------|
------------------|------------------|------------------|
--5---5-5----5-5-5|--7---7-7---7-7-7-|--9----9-9---9-9-9| 2x
--5---5-5----5-5-5|--7---7-7---7-5-7-|--9----9-9---9-9-7|
--3---3-3----3-3-3|--5---5-5---5-5-5-|--7----7-7---7-7-7|
------------------|------------------|------------------|

-------------------|-----------------|------------------|
-------------------|-----------------|------------------|
--x-x---5----------|--x-x---7--------|--x-x---9-7---5---| 2x
--x-x---5----------|--x-x---7--------|--x-x---9-7---5---|
--x-x---3----------|--x-x---5--------|--x-x---7-5---3---|
-------------------|-----------------|------------------|


------------------|------------------|------------------|
------------------|------------------|------------------|
--x-x---5---------|--x-x---7---------|--x-x---9-7---9---| 2x
--x-x---5---------|--x-x---7---------|--x-x---9-7---9---|
--x-x---3---------|--x-x---5---------|--x-x---7-5---7---|
------------------|------------------|------------------|


------------------|------------------|-------------------------|
------------------|------------------|-------------------------|
--9----9-9---9-9-9|--7----7-7---7-7-7|--5----5-5---5-5-5---7---|
--9----9-9---9-9-9|--7----7-7---7-7-7|--5----5-5---5-5-5---7---|
--7----7-7---7-7-7|--5----5-5---5-5-5|--3----3-3---3-3-3---5---|
------------------|------------------|-------------------------|


------------------|------------------|-------------------------|
------------------|------------------|-------------------------|
--9----9-9---9-9-9|--7----7-7---7-7-7|--5----5-5---5-5-5---9---|
--9----9-9---9-9-9|--7----7-7---7-7-7|--5----5-5---5-5-5---9---|
--7----7-7---7-7-7|--5----5-5---5-5-5|--3----3-3---3-3-3---7---|
------------------|------------------|-------------------------|


------------------|------------------|------------------|------------------|
------------------|------------------|------------------|------------------|
------------------|------------------|------------------|------------------|
------------------|------------------|------------------|------------------|
---9-----7-----5--|----3-------0-1-3-|-0-3-5--0-5-7--0-5|7--0-3-5--0-1-3---|
------------------|------------------|------------------|------------------|


------------------|------------------|------------------|------------------|
---0--3--5--7-5---|---------------5--|---------------5--|------------------|
------------7---7-|5--7-8-7-----7---7|-5--7-8-7----7---7|-5--7-8-7---12----|
------------------|------------------|------------------|------------------|
------------------|------------------|------------------|------------------|
------------------|------------------|------------------|------------------|



------------------|------------------|------------------|------------------|
------------------|------------------|------------------|------------------|
------------------|--5---------------|------------------|------------------|
------------------|--5---------------|------------------|------------------|
--9--7--5--3------|--5---------------|------------------|------------------|
------------------|--3---------------|------------------|------------------|


hat en freund und ich geschrieben! spielt das mal nach!
cya
marc
JUST WHEN ALL SEEMS FINE AND ALL PAIN FREE - YOU JAB ANOTHER PIN IN ME!!!
(is das nich so bei freundinnen?!)

HeTill ( Gast )
Beiträge:

13.03.2001 12:58
#7 Re: TABs antworten
Mal den Thread hierhin verschoben!

HeTill
Co-Webmaster
METALLICAFAN.DE


Is everbody ready to make some noise?
You all have to scream! Okay?!
I'm gonna say "Metal up your ass", and you gonna repeat it, when I point at you!
James Hetfield, Metal Militia Jam, 05.03.1983

Phantom Lord ( Gast )
Beiträge:

13.03.2001 19:24
#8 Re: TABs antworten
@Maxrro.Sind die für Gitarre oder Bass?Welcher Song,welche Band?

Maxxro ( Gast )
Beiträge:

13.03.2001 20:50
#9 Re: TABs antworten
hey dude!
ja ich hetill den thread hast du nich verschoben du hast ihn gelöscht!
das für die gitarre! wir haben noch keine band und wollen aber bald eine gründen! uns fehlt nur noch en drummer! vielleicht könnt ihr uns ja aushelfen?!
cya
marc

JUST WHEN ALL SEEMS FINE AND ALL PAIN FREE - YOU JAB ANOTHER PIN IN ME!!!
(is das nich so bei freundinnen?!)

Maxxro ( Gast )
Beiträge:

13.03.2001 20:51
#10 Re: TABs antworten
ohne ICH!
JUST WHEN ALL SEEMS FINE AND ALL PAIN FREE - YOU JAB ANOTHER PIN IN ME!!!
(is das nich so bei freundinnen?!)

Hetfieldfan ( Gast )
Beiträge:

13.03.2001 22:06
#11 Re: TABs antworten
In Antwort auf Maxxro:
ja hetill den thread hast du nich verschoben du hast ihn gelöscht!


Ähm... das muß man jetzt nicht unbedingt verstehen, oder?

Wenn HeTill meint er hat den Thread verschoben, dann hat er ihn wohl auch nicht gelöscht.
Außerdem: Wenn er gelöscht wäre könnte ich wohl kaum das hier in den Thread schreiben...

--------
This place inside my mind, a place I like to hide
You don't know the chances, what if I should die?
A place inside my brain, another kind of pain
You don't know the chances, I'm so blind

Jason Curtis Newsted forever!!!

CU and may the metal be with you! ©+® by Hetfieldfan
THE INCREDIBLE HETFIELDFAN

Moderator der Foren "PC Allgemein", "Off-Topic" und "Andere Bands"

JoKurt ( Gast )
Beiträge:

13.03.2001 22:19
#12 Re: TABs antworten
Egal.

------

I'm the one for whom the bell tolls

JoKurt

What does it mean to you?
For me, it's something I just do
I want something
I need to feel the sickness in you

Moderator der Foren "Lob & Tadel" sowie "Sites im Web"

Maxxro ( Gast )
Beiträge:

13.03.2001 23:40
#13 Re: TABs antworten
hehe!
ja ok jungens ich hab das selbst nich so genau verstanden is aber kein problem!
weiter gehts!
JUST WHEN ALL SEEMS FINE AND ALL PAIN FREE - YOU JAB ANOTHER PIN IN ME!!!
(is das nich so bei freundinnen?!)

Sandman ( Gast )
Beiträge:

22.03.2001 22:04
#14 Re: TABs antworten
NEM für Bass (unglaublich abwechslungsreich )

||Bassschlüssel, fis 6/8 Intro (24 Takte) ||

||: Em | DC | Em | DC | Em | DC | GH | Em | Em : || (1.+ 2. Strophe)
||: Em | DC | Em | DC | Em | DC | GH | Em | CA | D | CA | DD | CA | D | Em | Em : || (3.+ 4. Strophe)
||: Em | Am | Am | C | D | Em | Em : || (Ziwischenspiel (instrumental))
|| D | CA | D | CA | D | CA | D | CA | D | Em | Em |
Gitarrensolo: Em | DC | Em | DC | Em | DC | GH | Em (ausklingen lassen) ||

7. Strophe und Outro ohne Bass


Sandman

I'm off to never never land

TheUnforgiven II Offline

Overkill Member


Beiträge: 606

11.06.2003 18:11
#15 RE:Re: TABs antworten

Kann mir mal jemand die Tabs erklären also wie man die auf Gitarre spielt?


Metallica is the Law


"I need my anger to be me, I need to set my anger free"

Seiten 1 | 2
 Sprung  
Xobor Ein Kostenloses Forum von Xobor.de
Einfach ein Forum erstellen